ISO-10303-21;
HEADER;
FILE_DESCRIPTION (( 'STEP AP203' ),
    '1' );
FILE_NAME ('Q-QZWP-R4-10-1064-M.STEP',
    '2020-12-23T01:21:12',
    ( '' ),
    ( '' ),
    'SwSTEP 2.0',
    'SolidWorks 2020',
    '' );
FILE_SCHEMA (( 'CONFIG_CONTROL_DESIGN' ));
ENDSEC;

DATA;
#1 = CC_DESIGN_DATE_AND_TIME_ASSIGNMENT ( #310, #77, ( #329 ) ) ;
#2 = ORIENTED_EDGE ( 'NONE', *, *, #335, .F. ) ;
#3 = PERSON_AND_ORGANIZATION ( #103, #202 ) ;
#4 = LINE ( 'NONE', #269, #20 ) ;
#5 = CYLINDRICAL_SURFACE ( 'NONE', #91, 12.69999999999999929 ) ;
#6 = EDGE_LOOP ( 'NONE', ( #292, #308 ) ) ;
#7 = APPROVAL_STATUS ( 'not_yet_approved' ) ;
#8 = DIRECTION ( 'NONE',  ( 1.000000000000000000, 0.000000000000000000, 0.000000000000000000 ) ) ;
#9 = ORIENTED_EDGE ( 'NONE', *, *, #205, .T. ) ;
#10 = DIRECTION ( 'NONE',  ( 0.000000000000000000, 0.000000000000000000, -1.000000000000000000 ) ) ;
#11 = ORIENTED_EDGE ( 'NONE', *, *, #192, .T. ) ;
#12 = FACE_BOUND ( 'NONE', #212, .T. ) ;
#13 = AXIS2_PLACEMENT_3D ( 'NONE', #120, #95, #123 ) ;
#14 = CIRCLE ( 'NONE', #54, 5.000000000000001776 ) ;
#15 = DIRECTION ( 'NONE',  ( 0.000000000000000000, 0.000000000000000000, 1.000000000000000000 ) ) ;
#16 = CARTESIAN_POINT ( 'NONE',  ( 3.000000000000000000, 0.000000000000000000, 0.000000000000000000 ) ) ;
#17 = CARTESIAN_POINT ( 'NONE',  ( -1.250000000000000222, 5.000000000000000000, 0.000000000000000000 ) ) ;
#18 = LOCAL_TIME ( 9, 21, 12.00000000000000000, #239 ) ;
#19 = DIRECTION ( 'NONE',  ( -1.000000000000000000, -0.000000000000000000, -0.000000000000000000 ) ) ;
#20 = VECTOR ( 'NONE', #247, 1000.000000000000000 ) ;
#21 = CARTESIAN_POINT ( 'NONE',  ( -1.614212418857619014, 1.555301434917138433E-15, -12.69999999999999929 ) ) ;
#22 = DATE_AND_TIME ( #52, #18 ) ;
#23 = ORIENTED_EDGE ( 'NONE', *, *, #55, .T. ) ;
#24 = EDGE_LOOP ( 'NONE', ( #154, #51, #187, #138 ) ) ;
#25 = DATE_AND_TIME ( #71, #130 ) ;
#26 = CIRCLE ( 'NONE', #244, 5.000000000000000000 ) ;
#27 = DIRECTION ( 'NONE',  ( -0.000000000000000000, 0.000000000000000000, 1.000000000000000000 ) ) ;
#28 = VERTEX_POINT ( 'NONE', #61 ) ;
#29 = CALENDAR_DATE ( 2020, 23, 12 ) ;
#30 = DIRECTION ( 'NONE',  ( 0.000000000000000000, 0.000000000000000000, 1.000000000000000000 ) ) ;
#31 = VERTEX_POINT ( 'NONE', #86 ) ;
#32 = DIRECTION ( 'NONE',  ( 1.000000000000000000, 0.000000000000000000, 0.000000000000000000 ) ) ;
#33 = ADVANCED_FACE ( 'NONE', ( #270 ), #5, .T. ) ;
#34 = DIRECTION ( 'NONE',  ( 1.000000000000000000, 0.000000000000000000, 0.000000000000000000 ) ) ;
#35 = VERTEX_POINT ( 'NONE', #293 ) ;
#36 = AXIS2_PLACEMENT_3D ( 'NONE', #167, #273, #30 ) ;
#37 = CC_DESIGN_SECURITY_CLASSIFICATION ( #329, ( #211 ) ) ;
#38 = CARTESIAN_POINT ( 'NONE',  ( -3.000000000000000000, 6.123233995736766282E-16, -5.000000000000000000 ) ) ;
#39 = CARTESIAN_POINT ( 'NONE',  ( 3.000000000000000000, 0.000000000000000000, 0.000000000000000000 ) ) ;
#40 = DIRECTION ( 'NONE',  ( 1.000000000000000000, 0.000000000000000000, 0.000000000000000000 ) ) ;
#41 = CARTESIAN_POINT ( 'NONE',  ( 3.000000000000000000, 1.555301434917138433E-15, -12.69999999999999929 ) ) ;
#42 = DIRECTION ( 'NONE',  ( -1.000000000000000000, -0.000000000000000000, -0.000000000000000000 ) ) ;
#43 = FACE_OUTER_BOUND ( 'NONE', #129, .T. ) ;
#44 = ADVANCED_FACE ( 'NONE', ( #12, #136 ), #163, .F. ) ;
#45 = PLANE ( 'NONE',  #121 ) ;
#46 = FACE_OUTER_BOUND ( 'NONE', #80, .T. ) ;
#47 = CARTESIAN_POINT ( 'NONE',  ( 1.250000000000000222, 5.000000000000000000, 0.000000000000000000 ) ) ;
#48 = AXIS2_PLACEMENT_3D ( 'NONE', #17, #280, #68 ) ;
#49 = EDGE_CURVE ( 'NONE', #58, #306, #185, .T. ) ;
#50 = APPROVAL_PERSON_ORGANIZATION ( #152, #184, #314 ) ;
#51 = ORIENTED_EDGE ( 'NONE', *, *, #324, .T. ) ;
#52 = CALENDAR_DATE ( 2020, 23, 12 ) ;
#53 = VECTOR ( 'NONE', #272, 1000.000000000000000 ) ;
#54 = AXIS2_PLACEMENT_3D ( 'NONE', #143, #249, #109 ) ;
#55 = EDGE_CURVE ( 'NONE', #334, #220, #116, .T. ) ;
#56 = PERSON_AND_ORGANIZATION ( #103, #202 ) ;
#57 = CARTESIAN_POINT ( 'NONE',  ( -3.000000000000000000, 0.000000000000000000, 0.000000000000000000 ) ) ;
#58 = VERTEX_POINT ( 'NONE', #197 ) ;
#59 = EDGE_CURVE ( 'NONE', #319, #88, #158, .T. ) ;
#60 = EDGE_LOOP ( 'NONE', ( #236, #141 ) ) ;
#61 = CARTESIAN_POINT ( 'NONE',  ( 3.000000000000000000, 6.123233995736768255E-16, -5.000000000000001776 ) ) ;
#62 = EDGE_CURVE ( 'NONE', #31, #28, #14, .T. ) ;
#63 = CC_DESIGN_PERSON_AND_ORGANIZATION_ASSIGNMENT ( #332, #182, ( #259 ) ) ;
#64 = DIRECTION ( 'NONE',  ( -1.000000000000000000, -0.000000000000000000, -0.000000000000000000 ) ) ;
#65 = PLANE ( 'NONE',  #48 ) ;
#66 = AXIS2_PLACEMENT_3D ( 'NONE', #276, #42, #291 ) ;
#67 = DIRECTION ( 'NONE',  ( 0.000000000000000000, 0.000000000000000000, 1.000000000000000000 ) ) ;
#68 = DIRECTION ( 'NONE',  ( 0.000000000000000000, 0.000000000000000000, -1.000000000000000000 ) ) ;
#69 = CC_DESIGN_APPROVAL ( #82, ( #329 ) ) ;
#70 = CALENDAR_DATE ( 2020, 23, 12 ) ;
#71 = CALENDAR_DATE ( 2020, 23, 12 ) ;
#72 = CC_DESIGN_PERSON_AND_ORGANIZATION_ASSIGNMENT ( #127, #209, ( #211 ) ) ;
#73 = ORIENTED_EDGE ( 'NONE', *, *, #128, .T. ) ;
#74 = PERSON_AND_ORGANIZATION_ROLE ( 'classification_officer' ) ;
#75 = ADVANCED_BREP_SHAPE_REPRESENTATION ( 'Q-QZWP-R4-10-1064-M', ( #298, #104 ), #222 ) ;
#76 = VECTOR ( 'NONE', #151, 1000.000000000000000 ) ;
#77 = DATE_TIME_ROLE ( 'classification_date' ) ;
#78 = DESIGN_CONTEXT ( 'detailed design', #252, 'design' ) ;
#79 = DIRECTION ( 'NONE',  ( 0.000000000000000000, 0.000000000000000000, 1.000000000000000000 ) ) ;
#80 = EDGE_LOOP ( 'NONE', ( #106, #190, #11, #246 ) ) ;
#81 = APPROVAL_DATE_TIME ( #22, #133 ) ;
#82 = APPROVAL ( #231, 'UNSPECIFIED' ) ;
#83 = CARTESIAN_POINT ( 'NONE',  ( 1.250000000000000444, 0.000000000000000000, 0.000000000000000000 ) ) ;
#84 = ORIENTED_EDGE ( 'NONE', *, *, #251, .T. ) ;
#85 = ORIENTED_EDGE ( 'NONE', *, *, #315, .F. ) ;
#86 = CARTESIAN_POINT ( 'NONE',  ( 3.000000000000000000, 0.000000000000000000, 5.000000000000001776 ) ) ;
#87 = ORIENTED_EDGE ( 'NONE', *, *, #137, .T. ) ;
#88 = VERTEX_POINT ( 'NONE', #214 ) ;
#89 = CARTESIAN_POINT ( 'NONE',  ( -1.250000000000000222, 0.000000000000000000, 0.000000000000000000 ) ) ;
#90 = CIRCLE ( 'NONE', #194, 5.000000000000000000 ) ;
#91 = AXIS2_PLACEMENT_3D ( 'NONE', #144, #142, #312 ) ;
#92 = CYLINDRICAL_SURFACE ( 'NONE', #172, 5.000000000000000888 ) ;
#93 = EDGE_CURVE ( 'NONE', #238, #131, #99, .T. ) ;
#94 = CARTESIAN_POINT ( 'NONE',  ( 3.000000000000000000, 0.000000000000000000, 0.000000000000000000 ) ) ;
#95 = DIRECTION ( 'NONE',  ( -1.000000000000000000, -0.000000000000000000, -0.000000000000000000 ) ) ;
#96 = LOCAL_TIME ( 9, 21, 12.00000000000000000, #162 ) ;
#97 = DIRECTION ( 'NONE',  ( -1.000000000000000000, -0.000000000000000000, -0.000000000000000000 ) ) ;
#98 = DATE_AND_TIME ( #258, #96 ) ;
#99 = CIRCLE ( 'NONE', #331, 12.69999999999999929 ) ;
#100 = ADVANCED_FACE ( 'NONE', ( #221 ), #92, .F. ) ;
#101 = DATE_TIME_ROLE ( 'creation_date' ) ;
#102 = ORIENTED_EDGE ( 'NONE', *, *, #126, .T. ) ;
#103 = PERSON ( 'UNSPECIFIED', 'UNSPECIFIED', 'UNSPECIFIED', ('UNSPECIFIED'), ('UNSPECIFIED'), ('UNSPECIFIED') ) ;
#104 = AXIS2_PLACEMENT_3D ( 'NONE', #156, #132, #32 ) ;
#105 = CIRCLE ( 'NONE', #296, 12.69999999999999929 ) ;
#106 = ORIENTED_EDGE ( 'NONE', *, *, #324, .F. ) ;
#107 = UNCERTAINTY_MEASURE_WITH_UNIT (LENGTH_MEASURE( 1.000000000000000082E-05 ), #327, 'distance_accuracy_value', 'NONE');
#108 = PERSON_AND_ORGANIZATION ( #103, #202 ) ;
#109 = DIRECTION ( 'NONE',  ( 0.000000000000000000, 0.000000000000000000, 1.000000000000000000 ) ) ;
#110 = ORIENTED_EDGE ( 'NONE', *, *, #251, .F. ) ;
#111 = SHAPE_DEFINITION_REPRESENTATION ( #234, #75 ) ;
#112 = DIRECTION ( 'NONE',  ( 0.000000000000000000, 0.000000000000000000, -1.000000000000000000 ) ) ;
#113 = AXIS2_PLACEMENT_3D ( 'NONE', #57, #160, #266 ) ;
#114 = ORIENTED_EDGE ( 'NONE', *, *, #232, .T. ) ;
#115 = CARTESIAN_POINT ( 'NONE',  ( -3.000000000000000000, 5.000000000000000000, 0.000000000000000000 ) ) ;
#116 = CIRCLE ( 'NONE', #36, 5.000000000000000000 ) ;
#117 = DIRECTION ( 'NONE',  ( 0.000000000000000000, 0.000000000000000000, 1.000000000000000000 ) ) ;
#118 = DIRECTION ( 'NONE',  ( 0.000000000000000000, 0.000000000000000000, 1.000000000000000000 ) ) ;
#119 = ADVANCED_FACE ( 'NONE', ( #170 ), #318, .F. ) ;
#120 = CARTESIAN_POINT ( 'NONE',  ( -1.614212418857619014, 0.000000000000000000, 0.000000000000000000 ) ) ;
#121 = AXIS2_PLACEMENT_3D ( 'NONE', #47, #254, #275 ) ;
#122 =( NAMED_UNIT ( * ) PLANE_ANGLE_UNIT ( ) SI_UNIT ( $, .RADIAN. ) );
#123 = DIRECTION ( 'NONE',  ( 0.000000000000000000, 0.000000000000000000, 1.000000000000000000 ) ) ;
#124 = APPROVAL_ROLE ( '' ) ;
#125 = CARTESIAN_POINT ( 'NONE',  ( 3.000000000000000000, 12.69999999999999929, 0.000000000000000000 ) ) ;
#126 = EDGE_CURVE ( 'NONE', #131, #238, #216, .T. ) ;
#127 = PERSON_AND_ORGANIZATION ( #103, #202 ) ;
#128 = EDGE_CURVE ( 'NONE', #161, #35, #300, .T. ) ;
#129 = EDGE_LOOP ( 'NONE', ( #316, #110 ) ) ;
#130 = LOCAL_TIME ( 9, 21, 12.00000000000000000, #305 ) ;
#131 = VERTEX_POINT ( 'NONE', #217 ) ;
#132 = DIRECTION ( 'NONE',  ( 0.000000000000000000, 0.000000000000000000, 1.000000000000000000 ) ) ;
#133 = APPROVAL ( #7, 'UNSPECIFIED' ) ;
#134 = EDGE_LOOP ( 'NONE', ( #102, #294 ) ) ;
#135 = PERSON_AND_ORGANIZATION ( #103, #202 ) ;
#136 = FACE_OUTER_BOUND ( 'NONE', #134, .T. ) ;
#137 = EDGE_CURVE ( 'NONE', #28, #306, #178, .T. ) ;
#138 = ORIENTED_EDGE ( 'NONE', *, *, #192, .F. ) ;
#139 = APPROVAL_DATE_TIME ( #290, #82 ) ;
#140 = AXIS2_PLACEMENT_3D ( 'NONE', #125, #183, #27 ) ;
#141 = ORIENTED_EDGE ( 'NONE', *, *, #315, .T. ) ;
#142 = DIRECTION ( 'NONE',  ( -1.000000000000000000, -0.000000000000000000, -0.000000000000000000 ) ) ;
#143 = CARTESIAN_POINT ( 'NONE',  ( 3.000000000000000000, 0.000000000000000000, 0.000000000000000000 ) ) ;
#144 = CARTESIAN_POINT ( 'NONE',  ( -1.614212418857619014, 0.000000000000000000, 0.000000000000000000 ) ) ;
#145 = CYLINDRICAL_SURFACE ( 'NONE', #149, 5.000000000000000888 ) ;
#146 = DIRECTION ( 'NONE',  ( -1.000000000000000000, -0.000000000000000000, -0.000000000000000000 ) ) ;
#147 = LINE ( 'NONE', #21, #165 ) ;
#148 = LINE ( 'NONE', #203, #179 ) ;
#149 = AXIS2_PLACEMENT_3D ( 'NONE', #301, #282, #204 ) ;
#150 = CARTESIAN_POINT ( 'NONE',  ( -1.614212418857619014, 0.000000000000000000, 0.000000000000000000 ) ) ;
#151 = DIRECTION ( 'NONE',  ( -1.000000000000000000, -0.000000000000000000, -0.000000000000000000 ) ) ;
#152 = PERSON_AND_ORGANIZATION ( #103, #202 ) ;
#153 = AXIS2_PLACEMENT_3D ( 'NONE', #242, #8, #112 ) ;
#154 = ORIENTED_EDGE ( 'NONE', *, *, #265, .T. ) ;
#155 = EDGE_CURVE ( 'NONE', #35, #220, #148, .T. ) ;
#156 = CARTESIAN_POINT ( 'NONE',  ( 0.000000000000000000, 0.000000000000000000, 0.000000000000000000 ) ) ;
#157 = AXIS2_PLACEMENT_3D ( 'NONE', #89, #34, #166 ) ;
#158 = CIRCLE ( 'NONE', #227, 12.69999999999999929 ) ;
#159 = COORDINATED_UNIVERSAL_TIME_OFFSET ( 8, 0, .AHEAD. ) ;
#160 = DIRECTION ( 'NONE',  ( -1.000000000000000000, -0.000000000000000000, -0.000000000000000000 ) ) ;
#161 = VERTEX_POINT ( 'NONE', #175 ) ;
#162 = COORDINATED_UNIVERSAL_TIME_OFFSET ( 8, 0, .AHEAD. ) ;
#163 = PLANE ( 'NONE',  #180 ) ;
#164 = ORIENTED_EDGE ( 'NONE', *, *, #62, .F. ) ;
#165 = VECTOR ( 'NONE', #253, 1000.000000000000000 ) ;
#166 = DIRECTION ( 'NONE',  ( 0.000000000000000000, 0.000000000000000000, -1.000000000000000000 ) ) ;
#167 = CARTESIAN_POINT ( 'NONE',  ( -3.000000000000000000, 0.000000000000000000, 0.000000000000000000 ) ) ;
#168 = EDGE_LOOP ( 'NONE', ( #73, #333, #114, #243 ) ) ;
#169 = CARTESIAN_POINT ( 'NONE',  ( -3.000000000000000000, 0.000000000000000000, 0.000000000000000000 ) ) ;
#170 = FACE_OUTER_BOUND ( 'NONE', #317, .T. ) ;
#171 = CARTESIAN_POINT ( 'NONE',  ( 1.250000000000000444, 0.000000000000000000, 0.000000000000000000 ) ) ;
#172 = AXIS2_PLACEMENT_3D ( 'NONE', #195, #297, #189 ) ;
#173 = CYLINDRICAL_SURFACE ( 'NONE', #284, 5.000000000000000888 ) ;
#174 = ADVANCED_FACE ( 'NONE', ( #229, #285 ), #278, .F. ) ;
#175 = CARTESIAN_POINT ( 'NONE',  ( -1.250000000000000222, 0.000000000000000000, 5.000000000000000888 ) ) ;
#176 = CC_DESIGN_DATE_AND_TIME_ASSIGNMENT ( #25, #101, ( #259 ) ) ;
#177 = FACE_OUTER_BOUND ( 'NONE', #289, .T. ) ;
#178 = LINE ( 'NONE', #226, #76 ) ;
#179 = VECTOR ( 'NONE', #304, 1000.000000000000000 ) ;
#180 = AXIS2_PLACEMENT_3D ( 'NONE', #115, #40, #10 ) ;
#181 = AXIS2_PLACEMENT_3D ( 'NONE', #16, #19, #67 ) ;
#182 = PERSON_AND_ORGANIZATION_ROLE ( 'creator' ) ;
#183 = DIRECTION ( 'NONE',  ( -1.000000000000000000, 0.000000000000000000, -0.000000000000000000 ) ) ;
#184 = APPROVAL ( #207, 'UNSPECIFIED' ) ;
#185 = CIRCLE ( 'NONE', #263, 5.000000000000000000 ) ;
#186 = APPROVAL_PERSON_ORGANIZATION ( #188, #82, #124 ) ;
#187 = ORIENTED_EDGE ( 'NONE', *, *, #126, .F. ) ;
#188 = PERSON_AND_ORGANIZATION ( #103, #202 ) ;
#189 = DIRECTION ( 'NONE',  ( 0.000000000000000000, 0.000000000000000000, 1.000000000000000000 ) ) ;
#190 = ORIENTED_EDGE ( 'NONE', *, *, #59, .T. ) ;
#191 = ORIENTED_EDGE ( 'NONE', *, *, #55, .F. ) ;
#192 = EDGE_CURVE ( 'NONE', #88, #131, #4, .T. ) ;
#193 = LINE ( 'NONE', #295, #53 ) ;
#194 = AXIS2_PLACEMENT_3D ( 'NONE', #171, #323, #15 ) ;
#195 = CARTESIAN_POINT ( 'NONE',  ( -1.614212418857619014, 0.000000000000000000, 0.000000000000000000 ) ) ;
#196 = CIRCLE ( 'NONE', #157, 5.000000000000000888 ) ;
#197 = CARTESIAN_POINT ( 'NONE',  ( 1.250000000000000444, 0.000000000000000000, 5.000000000000000000 ) ) ;
#198 = APPLICATION_CONTEXT ( 'configuration controlled 3d designs of mechanical parts and assemblies' ) ;
#199 = CC_DESIGN_PERSON_AND_ORGANIZATION_ASSIGNMENT ( #3, #74, ( #329 ) ) ;
#200 = EDGE_CURVE ( 'NONE', #35, #161, #196, .T. ) ;
#201 = LINE ( 'NONE', #299, #321 ) ;
#202 = ORGANIZATION ( 'UNSPECIFIED', 'UNSPECIFIED', '' ) ;
#203 = CARTESIAN_POINT ( 'NONE',  ( -1.614212418857619014, 6.123233995736767268E-16, -5.000000000000000888 ) ) ;
#204 = DIRECTION ( 'NONE',  ( 0.000000000000000000, 0.000000000000000000, 1.000000000000000000 ) ) ;
#205 = EDGE_CURVE ( 'NONE', #161, #334, #193, .T. ) ;
#206 = LOCAL_TIME ( 9, 21, 12.00000000000000000, #159 ) ;
#207 = APPROVAL_STATUS ( 'not_yet_approved' ) ;
#208 = EDGE_LOOP ( 'NONE', ( #240, #268 ) ) ;
#209 = PERSON_AND_ORGANIZATION_ROLE ( 'design_supplier' ) ;
#210 = PRODUCT_RELATED_PRODUCT_CATEGORY ( 'detail', '', ( #311 ) ) ;
#211 = PRODUCT_DEFINITION_FORMATION_WITH_SPECIFIED_SOURCE ( 'ANY', '', #311, .NOT_KNOWN. ) ;
#212 = EDGE_LOOP ( 'NONE', ( #191, #245 ) ) ;
#213 = COORDINATED_UNIVERSAL_TIME_OFFSET ( 8, 0, .AHEAD. ) ;
#214 = CARTESIAN_POINT ( 'NONE',  ( 3.000000000000000000, 0.000000000000000000, 12.69999999999999929 ) ) ;
#215 = ORIENTED_EDGE ( 'NONE', *, *, #137, .F. ) ;
#216 = CIRCLE ( 'NONE', #113, 12.69999999999999929 ) ;
#217 = CARTESIAN_POINT ( 'NONE',  ( -3.000000000000000000, 0.000000000000000000, 12.69999999999999929 ) ) ;
#218 = ORIENTED_EDGE ( 'NONE', *, *, #335, .T. ) ;
#219 = DIRECTION ( 'NONE',  ( 0.000000000000000000, 0.000000000000000000, 1.000000000000000000 ) ) ;
#220 = VERTEX_POINT ( 'NONE', #38 ) ;
#221 = FACE_OUTER_BOUND ( 'NONE', #168, .T. ) ;
#222 =( GEOMETRIC_REPRESENTATION_CONTEXT ( 3 ) GLOBAL_UNCERTAINTY_ASSIGNED_CONTEXT ( ( #107 ) ) GLOBAL_UNIT_ASSIGNED_CONTEXT ( ( #327, #122, #228 ) ) REPRESENTATION_CONTEXT ( 'NONE', 'WORKASPACE' ) );
#223 = DIRECTION ( 'NONE',  ( -1.000000000000000000, -0.000000000000000000, -0.000000000000000000 ) ) ;
#224 = DIRECTION ( 'NONE',  ( -1.000000000000000000, -0.000000000000000000, -0.000000000000000000 ) ) ;
#225 = FACE_OUTER_BOUND ( 'NONE', #309, .T. ) ;
#226 = CARTESIAN_POINT ( 'NONE',  ( -1.614212418857619014, 6.123233995736767268E-16, -5.000000000000000888 ) ) ;
#227 = AXIS2_PLACEMENT_3D ( 'NONE', #39, #64, #219 ) ;
#228 =( NAMED_UNIT ( * ) SI_UNIT ( $, .STERADIAN. ) SOLID_ANGLE_UNIT ( ) );
#229 = FACE_OUTER_BOUND ( 'NONE', #208, .T. ) ;
#230 = DIRECTION ( 'NONE',  ( -1.000000000000000000, -0.000000000000000000, -0.000000000000000000 ) ) ;
#231 = APPROVAL_STATUS ( 'not_yet_approved' ) ;
#232 = EDGE_CURVE ( 'NONE', #220, #334, #26, .T. ) ;
#233 = ORIENTED_EDGE ( 'NONE', *, *, #200, .T. ) ;
#234 = PRODUCT_DEFINITION_SHAPE ( 'NONE', 'NONE',  #259 ) ;
#235 = LOCAL_TIME ( 9, 21, 12.00000000000000000, #213 ) ;
#236 = ORIENTED_EDGE ( 'NONE', *, *, #62, .T. ) ;
#237 = APPROVAL_PERSON_ORGANIZATION ( #108, #133, #260 ) ;
#238 = VERTEX_POINT ( 'NONE', #255 ) ;
#239 = COORDINATED_UNIVERSAL_TIME_OFFSET ( 8, 0, .AHEAD. ) ;
#240 = ORIENTED_EDGE ( 'NONE', *, *, #265, .F. ) ;
#241 = ADVANCED_FACE ( 'NONE', ( #277 ), #65, .F. ) ;
#242 = CARTESIAN_POINT ( 'NONE',  ( -1.250000000000000222, 0.000000000000000000, 0.000000000000000000 ) ) ;
#243 = ORIENTED_EDGE ( 'NONE', *, *, #205, .F. ) ;
#244 = AXIS2_PLACEMENT_3D ( 'NONE', #169, #146, #117 ) ;
#245 = ORIENTED_EDGE ( 'NONE', *, *, #232, .F. ) ;
#246 = ORIENTED_EDGE ( 'NONE', *, *, #93, .F. ) ;
#247 = DIRECTION ( 'NONE',  ( -1.000000000000000000, -0.000000000000000000, -0.000000000000000000 ) ) ;
#248 = DIRECTION ( 'NONE',  ( -1.000000000000000000, -0.000000000000000000, -0.000000000000000000 ) ) ;
#249 = DIRECTION ( 'NONE',  ( -1.000000000000000000, -0.000000000000000000, -0.000000000000000000 ) ) ;
#250 = APPLICATION_PROTOCOL_DEFINITION ( 'international standard', 'config_control_design', 1994, #198 ) ;
#251 = EDGE_CURVE ( 'NONE', #306, #58, #90, .T. ) ;
#252 = APPLICATION_CONTEXT ( 'configuration controlled 3d designs of mechanical parts and assemblies' ) ;
#253 = DIRECTION ( 'NONE',  ( -1.000000000000000000, -0.000000000000000000, -0.000000000000000000 ) ) ;
#254 = DIRECTION ( 'NONE',  ( -1.000000000000000000, 0.000000000000000000, -0.000000000000000000 ) ) ;
#255 = CARTESIAN_POINT ( 'NONE',  ( -3.000000000000000000, 1.555301434917138433E-15, -12.69999999999999929 ) ) ;
#256 = CIRCLE ( 'NONE', #181, 5.000000000000001776 ) ;
#257 = DIRECTION ( 'NONE',  ( 0.000000000000000000, 0.000000000000000000, 1.000000000000000000 ) ) ;
#258 = CALENDAR_DATE ( 2020, 23, 12 ) ;
#259 = PRODUCT_DEFINITION ( 'UNKNOWN', '', #211, #78 ) ;
#260 = APPROVAL_ROLE ( '' ) ;
#261 = ADVANCED_FACE ( 'NONE', ( #177 ), #173, .F. ) ;
#262 = PERSON_AND_ORGANIZATION_ROLE ( 'design_owner' ) ;
#263 = AXIS2_PLACEMENT_3D ( 'NONE', #83, #223, #320 ) ;
#264 = PERSON_AND_ORGANIZATION_ROLE ( 'creator' ) ;
#265 = EDGE_CURVE ( 'NONE', #88, #319, #105, .T. ) ;
#266 = DIRECTION ( 'NONE',  ( 0.000000000000000000, 0.000000000000000000, 1.000000000000000000 ) ) ;
#267 = CC_DESIGN_PERSON_AND_ORGANIZATION_ASSIGNMENT ( #135, #262, ( #311 ) ) ;
#268 = ORIENTED_EDGE ( 'NONE', *, *, #59, .F. ) ;
#269 = CARTESIAN_POINT ( 'NONE',  ( -1.614212418857619014, 0.000000000000000000, 12.69999999999999929 ) ) ;
#270 = FACE_OUTER_BOUND ( 'NONE', #24, .T. ) ;
#271 = ORIENTED_EDGE ( 'NONE', *, *, #155, .F. ) ;
#272 = DIRECTION ( 'NONE',  ( -1.000000000000000000, -0.000000000000000000, -0.000000000000000000 ) ) ;
#273 = DIRECTION ( 'NONE',  ( -1.000000000000000000, -0.000000000000000000, -0.000000000000000000 ) ) ;
#274 = ADVANCED_FACE ( 'NONE', ( #43 ), #45, .F. ) ;
#275 = DIRECTION ( 'NONE',  ( -0.000000000000000000, 0.000000000000000000, 1.000000000000000000 ) ) ;
#276 = CARTESIAN_POINT ( 'NONE',  ( -1.614212418857619014, 0.000000000000000000, 0.000000000000000000 ) ) ;
#277 = FACE_OUTER_BOUND ( 'NONE', #6, .T. ) ;
#278 = PLANE ( 'NONE',  #140 ) ;
#279 = ADVANCED_FACE ( 'NONE', ( #225 ), #145, .F. ) ;
#280 = DIRECTION ( 'NONE',  ( 1.000000000000000000, 0.000000000000000000, 0.000000000000000000 ) ) ;
#281 = CC_DESIGN_PERSON_AND_ORGANIZATION_ASSIGNMENT ( #56, #264, ( #211 ) ) ;
#282 = DIRECTION ( 'NONE',  ( -1.000000000000000000, -0.000000000000000000, -0.000000000000000000 ) ) ;
#283 = CARTESIAN_POINT ( 'NONE',  ( 1.250000000000000444, 6.123233995736766282E-16, -5.000000000000000000 ) ) ;
#284 = AXIS2_PLACEMENT_3D ( 'NONE', #150, #97, #257 ) ;
#285 = FACE_BOUND ( 'NONE', #60, .T. ) ;
#286 = APPROVAL_DATE_TIME ( #98, #184 ) ;
#287 = APPLICATION_PROTOCOL_DEFINITION ( 'international standard', 'config_control_design', 1994, #252 ) ;
#288 = CC_DESIGN_APPROVAL ( #184, ( #259 ) ) ;
#289 = EDGE_LOOP ( 'NONE', ( #85, #87, #84, #2 ) ) ;
#290 = DATE_AND_TIME ( #70, #206 ) ;
#291 = DIRECTION ( 'NONE',  ( 0.000000000000000000, 0.000000000000000000, 1.000000000000000000 ) ) ;
#292 = ORIENTED_EDGE ( 'NONE', *, *, #128, .F. ) ;
#293 = CARTESIAN_POINT ( 'NONE',  ( -1.250000000000000222, 6.123233995736767268E-16, -5.000000000000000888 ) ) ;
#294 = ORIENTED_EDGE ( 'NONE', *, *, #93, .T. ) ;
#295 = CARTESIAN_POINT ( 'NONE',  ( -1.614212418857619014, 0.000000000000000000, 5.000000000000000888 ) ) ;
#296 = AXIS2_PLACEMENT_3D ( 'NONE', #94, #230, #118 ) ;
#297 = DIRECTION ( 'NONE',  ( -1.000000000000000000, -0.000000000000000000, -0.000000000000000000 ) ) ;
#298 = MANIFOLD_SOLID_BREP ( 'Ðý×', #328 ) ;
#299 = CARTESIAN_POINT ( 'NONE',  ( -1.614212418857619014, 0.000000000000000000, 5.000000000000000888 ) ) ;
#300 = CIRCLE ( 'NONE', #153, 5.000000000000000888 ) ;
#301 = CARTESIAN_POINT ( 'NONE',  ( -1.614212418857619014, 0.000000000000000000, 0.000000000000000000 ) ) ;
#302 = MECHANICAL_CONTEXT ( 'NONE', #198, 'mechanical' ) ;
#303 = CC_DESIGN_APPROVAL ( #133, ( #211 ) ) ;
#304 = DIRECTION ( 'NONE',  ( -1.000000000000000000, -0.000000000000000000, -0.000000000000000000 ) ) ;
#305 = COORDINATED_UNIVERSAL_TIME_OFFSET ( 8, 0, .AHEAD. ) ;
#306 = VERTEX_POINT ( 'NONE', #283 ) ;
#307 = SECURITY_CLASSIFICATION_LEVEL ( 'unclassified' ) ;
#308 = ORIENTED_EDGE ( 'NONE', *, *, #200, .F. ) ;
#309 = EDGE_LOOP ( 'NONE', ( #215, #164, #218, #313 ) ) ;
#310 = DATE_AND_TIME ( #29, #235 ) ;
#311 = PRODUCT ( 'Q-QZWP-R4-10-1064-M', 'Q-QZWP-R4-10-1064-M', '', ( #302 ) ) ;
#312 = DIRECTION ( 'NONE',  ( 0.000000000000000000, 0.000000000000000000, 1.000000000000000000 ) ) ;
#313 = ORIENTED_EDGE ( 'NONE', *, *, #49, .T. ) ;
#314 = APPROVAL_ROLE ( '' ) ;
#315 = EDGE_CURVE ( 'NONE', #28, #31, #256, .T. ) ;
#316 = ORIENTED_EDGE ( 'NONE', *, *, #49, .F. ) ;
#317 = EDGE_LOOP ( 'NONE', ( #271, #233, #9, #23 ) ) ;
#318 = CYLINDRICAL_SURFACE ( 'NONE', #66, 5.000000000000000888 ) ;
#319 = VERTEX_POINT ( 'NONE', #41 ) ;
#320 = DIRECTION ( 'NONE',  ( 0.000000000000000000, 0.000000000000000000, 1.000000000000000000 ) ) ;
#321 = VECTOR ( 'NONE', #224, 1000.000000000000000 ) ;
#322 = CARTESIAN_POINT ( 'NONE',  ( -3.000000000000000000, 0.000000000000000000, 0.000000000000000000 ) ) ;
#323 = DIRECTION ( 'NONE',  ( -1.000000000000000000, -0.000000000000000000, -0.000000000000000000 ) ) ;
#324 = EDGE_CURVE ( 'NONE', #319, #238, #147, .T. ) ;
#325 = ADVANCED_FACE ( 'NONE', ( #46 ), #326, .T. ) ;
#326 = CYLINDRICAL_SURFACE ( 'NONE', #13, 12.69999999999999929 ) ;
#327 =( LENGTH_UNIT ( ) NAMED_UNIT ( * ) SI_UNIT ( .MILLI., .METRE. ) );
#328 = CLOSED_SHELL ( 'NONE', ( #33, #100, #261, #274, #279, #119, #44, #325, #174, #241 ) ) ;
#329 = SECURITY_CLASSIFICATION ( '', '', #307 ) ;
#330 = CARTESIAN_POINT ( 'NONE',  ( -3.000000000000000000, 0.000000000000000000, 5.000000000000000000 ) ) ;
#331 = AXIS2_PLACEMENT_3D ( 'NONE', #322, #248, #79 ) ;
#332 = PERSON_AND_ORGANIZATION ( #103, #202 ) ;
#333 = ORIENTED_EDGE ( 'NONE', *, *, #155, .T. ) ;
#334 = VERTEX_POINT ( 'NONE', #330 ) ;
#335 = EDGE_CURVE ( 'NONE', #31, #58, #201, .T. ) ;
ENDSEC;
END-ISO-10303-21;
